The Peavey Wolfgang Registry

Site Map
Home
Forums
EVH Product News
Articles/Reviews

EVH Guitar Info
EVH Guitar Registry
View EVH Guitar Registry
EVH eBay Listings

5150-III Information
5150 Information
5150 Registry
View 5150 Registry
5150 Amp Settings
View 5150 Settings
5150 eBay Listings

Links
Van Halen Tabs

Van Halen II Tabs

Dance The Night Away Tab


Dance the Night Away
	Van Halen, from Van Halen II
	Transcribed by Ned Cullen
	webmaster - EVH Guitar Registry (www.wolfgangregistry.com)
	
	Tune to Eb


Here's the signature riff for the song, this verys throughout the
song but its basically the same.  Also used during the verses

--------------------------------------------------------------
----9-----9-10-----9---7-7__5-5-4------9-----9-10---9-5-5--7--
----9-----9--9-----9---8-8__6-6-5------9-----9--9---9-6-6--8--
----9--9--9--9--9--9---9-9__7-7--------9-----9----9---7-7--9--
-----------------------9-9__7-7-------------------------------
-0---------------------------------0--------------------------




    Ooh, baby........Won't ya turn............Oooh..baby
 B5 C#5       
-----------------------------------------------------------------
---------------4--------------------7-5^4----------------4-5^4-----
----------4----4--4-------------4---4-4---4---------4----4-4-4-4-
--4---6------4-------6-6-6-6/---4-------------4--6--4--4----------
--2---4--------------4-4-4-4/-----------------2--4----------------
-----------------------------------------------------------------

Take a chance
-----------------4---------------------
---------5---4--------4--5--4-5--------
---------6-----6------4--4--4-4--------
---------6------------4--4--4-4--------
---------4------------------------------
----------------------------------------



Bridge

-------------------------------------------------------------------
-------------------------------------------------------------------
-4-------------4-------------2-------------2-----------------------
-4-------------4-------------2-------------2-----------------------
-2-2-2-2-2-2-2-2-2-2-2-2-2-2-0-0-0-0-0-0-0-0-0-0-0-0-0-0-------------
-------------------------------------------------------------------


-------------------------------------------------------------------
--------------------------------------------4-5-4-5----------------
-4-------------4-------------4-----2--------2-2-2-2----------------
-4-------------4-------------4-----2-------------------------------
-2-2-2-2-2-2-2-2-2-2-2-2-2^0---0-0-0-------------------------------
-------------------------------------------------------------------

Solo - is the same as the intro but tap harmonics 1 octive higher.


Dance the night ...
Dance, dance....
(repeat and fade)

Site designed and maintained by Edward Cullen.
Bandwidth sponsored by Liquid Web
The Wolfgang Registry is not associated with Peavey Electronics, Fender or Van Halen. All trademarks and copyrights on this page are owned by their respective owners. The Frankenstein Design, a registered U.S. copyright, and the VH logos, registered U.S. trademarks, are used on this website under license from E.L.V.H., Inc. The owner of this website is entirely responsible for all content and material on this website, and is not affiliated with, or endorsed by, VAN HALEN or E.L.V.H., Inc. All material contained on this site is the property of Edward Cullen and may not be used without permission.
This page © Copyright 2003-2017 Edward Cullen All rights reserved.