The Peavey Wolfgang Registry

Site Map
Home
Forums
EVH Product News
Articles/Reviews

EVH Guitar Info
EVH Guitar Registry
View EVH Guitar Registry
EVH eBay Listings

5150-III Information
5150 Information
5150 Registry
View 5150 Registry
5150 Amp Settings
View 5150 Settings
5150 eBay Listings

Links
Van Halen Tabs

Van Halen Fair Warning Guitar Tabs

Push Comes to Shove Guitar Tab


PUSH COMES TO SHOVE
As recorded by Van Halen
(From the 1981 Album FAIR WARNING)
Words and Music by Edward Van Halen, Alex Van Halen, Michael Anthony & David Lee Roth

 

Gtr I (E A D G B E) - 'Eddie Van Halen brown sound Rhythm'
Gtr II (E A D G B E) - 'Eddie Van Halen clean w/flanger and delay'
Gtr III (E A D G B E) - 'Eddie Van Halen brown sound Lead'

Intro
  Q=96
 4/4
  Gtr I
                <    >
  Wx4           Q   +H      E    S  S
|------------|-------------------------|
|------------|-10--(10)----10\-/12-12s=|
|------------|-------------------------|
|------------|-10--(10)----10\-/12-12s=|
|------------|-------------------------|
|------------|-------------------------|


                                                                     >
   Q   +E.  +S    Q   E E    S  S  E  +H      +E     E    H      Q   Q
|-------------------------|----------------------------|-----------------|
|-10--(10)-(10)-/13s=12---|-10s12s10-(10)----(10)\-/12s|=10----/13s=12---|
|-------------------------|----------------------------|-----------------|
|-10--(10)-(10)-/14s=12---|-10s12s10-(10)----(10)\-/12s|=10----/14s=12---|
|-------------------------|----------------------------|-----------------|
|-------------------------|----------------------------|-----------------|


   <    >
   Q   +Q    +Q    +E     S  +S
|--------------------------------|
|-10--(10)--(10)--(10)\-/12-(12)s|
|--------------------------------|
|-10--(10)--(10)--(10)\-/12-(12)s|
|--------------------------------|
|--------------------------------|


   E  +E   +E.  +S     Q   E E    S  S  E  +H      +E     E
|------------------------------|-----------------------------|
|-10-(10)-(10)-(10)\-/13s=12---|-10s12s10-(10)----(10)\-/12s=|
|------------------------------|-----------------------------|
|-10-(10)-(10)-(10)\-/14s=12---|-10s12s10-(10)----(10)\-/12s=|
|------------------------------|-----------------------------|
|------------------------------|-----------------------------|


   H      Q   Q     H.       +E    E    Q.    +E    Q   E E
|----------------|-------------------|----------------------|
|-10----/13s=12--|-10-------(10)-/12s|=10----(10)-/13s=12---|
|----------------|-------------------|----------------------|
|-10----/14s=12--|-10-------(10)-/12s|=10----(10)-/14s=12---|
|----------------|-------------------|----------------------|
|----------------|-------------------|----------------------|


   S  S  E  +H      +E     E    H      Q   Q     S S S S E S S E Q  E
|----------------------------|-----------------|-----5-5---5-5---5-----|
|-10s12s10-(10)----(10)\-/12s|=10----/13--12\--|-----5-5---5-5---5--x/-|
|----------------------------|-----------------|-----------5-----5--x/-|
|-10s12s10-(10)----(10)\-/12s|=10----/14--12\--|--------------------x/-|
|----------------------------|-----------------|-x---------------------|
|----------------------------|-----------------|-----------------------|
                                               |-Rhy Fig 1

                      PM------------|
  E  S  S E  S  S S S S S S a  E.   S S S S e e e S S E E
|---10-10---10-10-----------------|-----5-5---------------|
|---10-10---10-10-----------------|-----5-5-------5-5-5---|
|-----------10-10-----------------|-----5-5-------5-5-5---|
|---------------------------------|-----------------------|
|-----------------8---8-7-8-8s10\-|-0-------3-2-0---------|
|---------------------------------|---------------------5s|


   E  S  S E  S  S E S S  S  S  S  S
|----10-10---10-10---x-x-12-10-10-10-||
|----10-10---10-10---x-x-10-10-10-10-||
|------------10-10-------------------||
|------------------------------------||
|------------------------------------||
|-10---------------------------------||
                       end Rhy Fig 1-|

 Verse 1
  PM
  S S S S e e e S S E E
|-----5-5---------------|
|-----5-5-------5-5-5---|
|-----5-5-------5-5-5---|
|-----------------------|
|-x-------3-2-0---------|
|---------------------5s|


                       PM------------|
   E  S  S E  S  S S S S S S a  E.   S S S S e e e S S E E
|----10-10---10-10-----------------|-----5-5----------------|
|----10-10---10-10-----------------|-----5-5-------5-5-5----|
|------------10-10-----------------|-----5-5-------5-5-5----|
|----------------------------------|------------------------|
|------------------8-7-8-7-8-8s10\-|-0-------3-2-0----------|
|-10-------------------------------|---------------------5s=|


                                       PM
   E  S  S E  S  S E S S  S  S  S  S   S S S S e e e S S E E
|----10-10---10-10---x-x-12-10-10-10-|-----5-5----------------|
|----10-10---10-10---x-x-10-10-10-10-|-----5-5-------5-5-5----|
|------------10-10-------------------|-----5-5-------5-5-5----|
|------------------------------------|------------------------|
|------------------------------------|-x-------3-2-0----------|
|-10---------------------------------|---------------------5s=|
                                     |-Rhy Fig 2

   E  S  S E  S  S E S S  S  S  S  S
|----10-10---10-10---x-x-12-10-10-10-|
|----10-10---10-10---x-x-10-10-10-10-|
|------------10-10-------------------|
|------------------------------------|
|------------------------------------|
|-10---------------------------------|


  PM                      PM----------|
  S S S S e e e S S E.S   S S S S S S E Q.    S S
|-----5-5---------------|---------------------------||
|-----5-5-------5-5-5p0-|---------------------------||
|-----5-5-------5-5-5p0-|---------------------------||
|-----------------------|-2-2-2-2-5-5-3-2----/x-x\--||
|-x-------3-2-0---------|---------------2----/x-x\--||
|-----------------------|---------------0----/x-x\--||
                                      end Rhy Fig 2-|

 Pre-Chorus
  Gtr II
             T
  Q.         Q.          S E.          E.   S +E    E   a  E.     S +E    E
|-----------------------------------|-----------------------------------------|
|------------------------5s6--------|-------5-(5)---6---6s=8------6-(6)---5---|
|-7----------7(19)------------------|--7--------------------------------------|
|-----------------------------------|-----------------------------------------|
|-----------------------------------|-----------------------------------------|
|-----------------------------------|-----------------------------------------|
|-Rhy Fig 3
|
| Gtr I
|                                                             PM------------|
| E  S S S S E     E S S S S  S  S    +E  S S  S  E   S   +S  S S S  S  S S S
|--------5---------------5----------|----------5------------------------------|
|----6-----6---------6-----6--6-(6)-|-(6)---------6---------------------------|
|------7-----7---------7---------7--|-(7)-7-7---------7---(7)-----------------|
|-----------------------------------|-----------------------------------------|
|-----------------------------------|-----------------------------------------|
|-----------------------------------|-------------------------6-6-6--6--6-6-6-|


  H             +E  S S  E     E
|-------------------------------------|
|------------------------5-----6------|
|-7-------------(7)-7-7---------------|
|-------------------------------------|
|-------------------------------------|
|-------------------------------------|
|
| E S S S S S S +E  S S +S  S  S  S
|-------5p0-----------------5-(5)p0---|
|---6-------6-------6----------8------|
|-----7-------7-(7)---7-(7)-----------|
|-------------------------------------|
|-------------------------------------|
|-------------------------------------|


  E.     S  +S   S E a  Q        E.     S
|-----------------------------------------|
|--------5--(5)--5-6-6s=8--------8--------|
|-7---------------------------------------|
|---------------------------------------7s|
|-----------------------------------------|
|-----------------------------------------|
|                           end Rhy Fig 3-|
|
|                          PM--------------
| E   E     +S   S E   +S  S S S S  S S S
|----------------5------------------------|
|-6----------------6---(6)----------------|
|----<7>---(<7>)--------------------------|
|-----------------------------------------|
|-----------------------------------------|
|--------------------------8-8-8-8--8-8-8-|


  S  S S  S  S  S  S  S Q        S  S  S S    E  S  S  +E    E   S S S S E.     S
|------------------------------------------|-----------------------------------------|
|--------13p10----10h11---------18p17-17---|-17-17-15-(15)-------5-------------------|
|---10---------10---------------17----17---|-17-17-15-(15)---------5-----------------|
|-8----------------------------------------|-------------------------8-5--------7s===|
|------------------------------------------|-----------------------------------------|
|------------------------------------------|-----------------------------------------|
|-Rhy Fig 4
|
|--------|                PM--|                  PM|               PM  PM
| E    S  S  S  S  S  S S S S S  S  S  S S    E  S  S   S  S S S S S S S S  S S S
|------------------------------------------|-----------------------------------------|
|------------6-----5-------------6p=5------|------------6----6-----------5--6p5------|
|------------5-----5-------------------5---|------------5----5------------------5----|
|-------------------------5---5----------5s|==3------------------------5-------------|
|------------------------------------------|-----------------------------------------|
|-8----8--8--------------------------------|-----6--6--------------6-----------------|


    S  S S  S  S  S  S  S Q        S  S  S S    S  E    S E    S S H
|--------------------------------------------|--------------------------||
|----------13p10----10h11---------18p17-17---|-17s15---15-----15--------||
|-----10---------10---------------17----17---|-17s15---15-----15--------||
|---8----------------------------------------|---------15-----15--------||
|--------------------------------------------|--------------------------||
|--------------------------------------------|--------------------------||
|                                                         end Rhy Fig 4-|
|
|   PM-----|                PM--|                    PM|
| a E    S  S  S  S  S  S S S S S  S  S  S S    E    S  S S S  S S H
|--------------------------------------------|--------------------------||
|--------------6-----5-------------6p=5------|-----------------5--------||
|--------------5-----5-------------------5---|------------5----5--------||
|------------------------------------------5s|==3---------5----5--------||
|--------------------------------------------|--------------------------||
|-5s6----6--6---------------6---6------------|-------6--6------6--------||


 Chorus
  Gtr I
          PM--|
  S S S S E E E S S S  S  S S   S S S S S S S S S S E S S S S
|-----5-5-------x-x-8-(8)-8-8-|-x-x-x-x-------------0---------|
|-----5-5-------x-x-8-(8)-8-8-|-x-x-x-x-----8-------0-1p0-----|
|---------------x-x-7p=5--5-5-|-x-x-x-x-7-------9---------2p0-|
|---------7-5-7---------------|-------------------------------|
|-x---------------------------|-------------------------------|
|-----------------------------|-------------------------------|


  S S S S E S S S S S S S  S  S S
|-----5-5---5-5-----x-x-8-(8)-8-8---|
|-----5-5---5-5-5---x-x-8-(8)-8-8---|
|-----------5-5-5---x-x-7p=5--5-5---|
|-----------------------------------|
|-x---------------------------------|
|-----------------------------------|


                                           PM--|
  S S S S S S S S S S S S S S E    S S S S E E E S S S  S  S S
|-x---x-x-6s5-x-x-x-x-2s3-x-x----|-----5-5-------x-x-8-(8)-8-8-|
|-x---x-x-4s3-x-x-x-x-----x-x----|-----5-5-------x-x-8-(8)-8-8-|
|--------------------------------|---------------x-x-7p=5--5-5-|
|-----------------------------5\-|---------7-5-7---------------|
|--------------------------------|-x---------------------------|
|--------------------------------|-----------------------------|


  S S S S S S S S S S S  S  E S S
|-x-x-x-x---------0------0--0-0-0---||
|-x-x-x-x---------0---0-(0)h1-1-1---||
|-x-x-x-x-7---8---9-----------------||
|-----------------------------------||
|-----------------------------------||
|-----------------------------------||


 Verse 2
Rhy Fig 1

 Pre-Chorus
  Gtr II plays Rhy Fig 3

  Gtr I
  E  S S S S S     S S S S S S E  S
|--------5-------------------5------|
|----6-----6-------------6-----6----|
|------7-----7-------7-7---7------7-|
|-----------------------------------|
|-----------------------------------|
|-----------------------------------|


                       PM------------|
  E  S S  S  S E   +S  S S S  S  S S S   E E S E.  E  E   S E   S
|---------5----------------------------|-----5------------5---------|
|----6-------6-------------------------|-------6------------6-------|
|------7-------7---(7)-----------------|---7-------7--7---------7---|
|--------------------------------------|-7--------------------------|
|--------------------------------------|----------------------------|
|----------------------6-6-6--6--6-8-8-|----------------------------|


                                       |-Gtr II plays Rhy Fig 4 (1st 3 bars)
                        PM----------------------|                PM--|
  +E  S S  S  S E   +S  S S S S  S S S   E    S  S  S  S  S  S S S S S  S  S  S S
|----------5---------------------------|------------------------------------------|
|-----6-------6------------------------|------------6-----5-------------5--6p=5---|
|-(7)---7-------7---(7)----------------|------------5-----5-----------------------|
|--------------------------------------|------------------------------------------|
|--------------------------------------|------------------------------------------|
|-----------------------6-6-6-6--6-6-6-|-6----6--6---------------6---6----------8s|
                                       |-Rhy Fig 4A

   PM---|               PM--|
   E  S  S   S  S S S S S S S S S S S
|----------------------------------------|
|------------6----5-----------6p5--------|
|------------5----5---------------5------|
|-------------------5---------------5s===|
|----------------------------------------|
|--6--6--6--------------6---x------------|



  PM-----|                PM--|
  E    S  S  S  S  S  S S S S S  S  S  S S
|------------------------------------------|
|------------6-----5-------------5--6p=5---|
|------------5-----5-----------------------|
|-3--------------------------------------5-|
|------------------------------------------|
|------6--6---------------6---6------------|


                    Gtr III
                                         T
   S  E    S E    S S  E       E  +E  S  a  S
|----------------------------------------------||
|-17s15---15-----15----------------------------||
|-17s15---15-----15---19b21==\17r(17)p9-16s14--||
|---------15-----15----------------------------||
|----------------------------------------------||
|----------------------------------------------||
|
|  PM-----|
|  E    S  S S S  S S  Q           Q
|----------------------------------------------||
|------------6----5----------------------------||
|------------5----5----------------------------||
|------------5----5----------------------------||
|----------------------------------x\----------||
|--6----6--6------5----------------x\----------||
                                end Rhy Fig 4A-|

 Guitar Solo
  Gtr III
                            ~~~~~~~~~~~~~~~~~~
   S      +E.      +S   +S  E   +H
|--------------------------------------------|
|--------------------------------------------|
|-14b16==(16)-----(16)r(14)p9---(9)----------|
|--------------------------------------------|
|--------------------------------------------|
|--------------------------------------------|
|
| Gtr I
|  S       S  S S   S    S  S S  Q   S S S S
|--------------------------------------------|
|--------------------------------------------|
|--------------------------------------------|
|--------------------------------------------|
|----------------------------------------0-2-|
|--5-------5----5--------3--5--------5-5-----|


 ~~~~~T        T       T
  +S  E.       E.      S     +Q      +S  S S  S
|-----------------------------------------------|
|-----------------------------------------------|
|-(9)-9(21)----9(16)---9(14)-(9)-----(9)--------|
|------------------------------------------5s12-|
|-----------------------------------------------|
|-----------------------------------------------|
|
|                                          PM|
|  E.       S +E     S S      S  S E  S  S S  S
|-----------------------------------------------|
|-----------------------------------------------|
|-----------------------------------------------|
|-----------------------------------------------|
|--3--------2-(2)-------------------------------|
|--------------------0--------x--x-x--x--x-0--3-|


                                                               ~~~~~~~
                  |--------6---------|
  E    T  T  T T  S  S    S  S  S    S  T  T  T  T  +T   T  T  T  +E.      +S
|-------------------------------------------------------------------------------|
|-------------------------------------------------------------------------------|
|---------------------------12h15p==14-12h15h19p15-(15)h19p15p14-(14)-----(14)\-|
|----------------12h15h==19-----------------------------------------------------|
|-----12h15h18------------------------------------------------------------------|
|-------------------------------------------------------------------------------|
|
| PM------------------------|                                           PM|
| S S  S     S    S    S     S    S     Q                          S  S S   S
|-------------------------------------------------------------------------------|
|-------------------------------------------------------------------------------|
|-------------------------------------------------------------------------------|
|-------------------------------------------------------------------------------|
|-----------------------------------------------------------------------0---2---|
|-5-5--------5---------3-----5-------------------------------------x--x---------|


    S   S  S  S      +E.    +T   T  S  S  E      +Q
|------17-----------------------------------------------------|
|---------17-21b22==(22)r==(21)p17----17----------------------|
|-/19------------------------------19----18b19==(19)\---------|
|-------------------------------------------------------------|
|-------------------------------------------------------------|
|-------------------------------------------------------------|
|
|                                                       PM|
|   E.        S      +E  S   S      S  S  E       S   S S S
|-------------------------------------------------------------|
|-------------------------------------------------------------|
|-------------------------------------------------------------|
|-------------------------------------------------------------|
|---3---------2------(2)--------------------------------------|
|------------------------0----------x--x--x-------x---x-0-3---|


  E   S S S S S S T T T T S S S S S a  S
|-----------5-------------5s7---8---9s12-|
|---------5---5---------5----------------|
|-------5---------7---5------------------|
|-----7---------x---7--------------------|
|----------------------------------------|
|----------------------------------------|
|
| PM----------|                   PM--|
| S S S S S S S S S   S   S S S S S    S
|-----------------5---5---5--------------|
|-----------------5---5---5--------------|
|-----------------5---5---5--------------|
|----------------------------------------|
|---------------------------------0----2-|
|-5-5---5---3-5---------------x-x--------|


                                 ~~~~
  S  S  S S  S   a  E    S  +T   E..      +Q
|----8-10-7--8----------------------------------------|
|---------------10s12s==13-(13)p10-------(10)\--------|
|-----------------------------------------------------|
|-----------------------------------------------------|
|-----------------------------------------------------|
|-----------------------------------------------------|
|
| E.      S +E        S  S   S       S E   S   +S  E
|-----------------------------------------------------|
|-----------------------------------------------------|
|----------------------------2s======7-----7b8r(7)-5--|
|----------------------------2s======7----------------|
|-3-------2-(2)---------------------------------------|
|---------------------0--x----------------------------|


  E   S  S S S E   S S E   +S    E   S
|--------------------------------------|
|-----8-10-6---------------------------|
|------------9p7---------------------5-|
|------------------9p7-7---(7)\--------|
|-------------------------------/7-----|
|--------------------------------------|
|
| PM-----------|                   PM|
| S S S  S S S S S E   S S  S    S S S
|----------------------5s7s=5----------|
|----------------------5s7s=5----------|
|----------------------5s7s=5----------|
|--------------------------------------|
|--------------------------------x-0-2-|
|-5-5----5---3-5-----------------------|


                      PM
  S  S   +S  S  E   S S S S S   +S  S    S   +E
|----------------------------------------------------|
|----------------------------------------------------|
|----7b8r(7)p5--5b7----------------------------------|
|-------------------7---5h7-5b7r(5)-7----5b7r(5)b7===|
|---------------------7------------------------------|
|----------------------------------------------------|
|
| E.         S +E   S S S S E       S   +S    E
|----------------------------------------------------|
|----------------------------------------------------|
|-----------------------2s7---------7b8r(7)---5------|
|-----------------------2s7--------------------------|
|-3----------2-(2)-----------------------------------|
|-------------------0-x------------------------------|


                            ~~
  +E    +S  S S E   S  S S  E  +S   S E
|-----------------------------------------|
|---------------------10---10-(10)-20-----|
|---------------4s==9----9----------------|
|-(5)---(5)-------------------------------|
|-----------------------------------------|
|-----------------------------------------|
|
|  PM-------------|                   PM|
|  S  S  S  S S S S S  Q        S   S S S
|-----------------------------------------|
|-----------------------------------------|
|-----------------------------------------|
|-----------------------------------------|
|-------------------------------------0-2-|
|--5--5-----5---3-5-------------x---x-----|


                                                    \1/   \1/
    S   S S  S  S   S  S  S  S     +S   S  S  S    +S    +E
|--19--17---20-----19-17---------------------------------------|
|-(17)-------------------20-20b21r(20)p17----17---(17)--(17)\--|
|-----------------------------------------19-------------------|
|--------------------------------------------------------------|
|--------------------------------------------------------------|
|--------------------------------------------------------------|
|
|   E.       S +E      S  S  S      S   E     S    +S     E
|--------------------------------------------------------------|
|--------------------------------------------------------------|
|----------------------------2s=====7---------7b8r=(7)----5----|
|----------------------------2s=====7--------------------------|
|---3--------2-(2)---------------------------------------------|
|----------------------0--x------------------------------------|


  S E   T T S S S S S E   T T S S S S
|-------------------------------------|
|-------------------------------------|
|---5h==7p5p4-5---5---5h==7p5p4-5-----|
|---------------------------------7-7-|
|-------------------------------------|
|-------------------------------------|
|
| PM------------|                 PM|
| S S S S   S S S S E   S S   S S S S
|-----------------------5s7s==5-------|
|-----------------------5s7s==5-------|
|-----------------------5s7s==5-------|
|-------------------------------------|
|-------------------------------x-0-2-|
|-5-5---5-----3-5---------------------|


                           ~~~       T
  S S S S  S  S E   +E    +E    +S   S S S
|-------5-----------------------------------|
|----------8p=5-8b9-(9)---(9)---(9)---------|
|-5h7s9-----------------------------10p5h9--|
|-------------------------------------------|
|-------------------------------------------|
|-------------------------------------------|
|
|                                      PM|
| E.    S +E    E   +S  E     S  S   S S S
|-------------------------------------------|
|-------------------------------------------|
|-------------------------------------------|
|-------------------------------------------|
|-3-----2-(2)-------------------------------|
|---------------0---(0)-0-----0--0---1-3s5--|


Gtr II plays Rhy Fig 4A
   T              T              T     T         T
   |-----6-----|  |------6-------|
   S S S S S   S  S S   S S  S   S T T T T E   S S S S
|------------------------------------------------------|
|------------------------------------------------------|
|-10p9p7p5h7h==9-10p9p==7p5----------------------9p5h7-|
|---------------------------h7---9p5h7-9p5s3s==5-------|
|------------------------------------------------------|
|------------------------------------------------------|



   T      T       T        T     ~~~~~~~
   S S S  S S  S  S  S  S  S  S  S  +E.     +S
|--------------------------------------------------|
|--------------------------------------------------|
|-12p7s9-14p9s10-15p10h12-17p12p10-(10)----(10)\---|
|--------------------------------------------------|
|--------------------------------------------------|
|--------------------------------------------------|



  T      T      T       T        T     ~~
  S S S  S S S  S S  S  S  S  S  S  S  E
|------------------------------------------|
|------------------------------------------|
|-9p5s7-12p7s9-14p9s10-15p10s12-17p12s15---|
|------------------------------------------|
|------------------------------------------|
|------------------------------------------|



                               Gtr II
   +S   S  S  S  S  S  E       Q  Q
|---------17-------17-----------------||
|------------17-20----20b22\----------||
|-(15)s18-------------------------4s==||
|-------------------------------------||
|---------------------------------2s==||
|-------------------------------------||



 Outro
  Gtr II
  W                                  E    E    E   E   E   E   E   E
|----------------------------------|---------------------------------|
|----------------------------------|---------------------------------|
|-7--------------------------------|-----11---11s==9---9s==6---7s==6-|
|----------------------------------|---------------------------------|
|-5--------------------------------|------9----9s==7---7s==4---5s==4-|
|----------------------------------|---------------------------------|
|
| Gtr I
|               PM                             PM  PM
| E S S S S S S E  S S  S  S  S  S   S S  S S  S S S S S S E S S S S
|---7-7-7----------x-x-10-10-10-10-|---------------------------------|
|---7-7-7----------x-x-10-10-10-10-|---------------------------------|
|---7-7-7---7---7\-x-x--9p=7--7--7-|-------------------x-x-9---7-----|
|-----------7---9\-----------------|-x-x--x-x--7---7---x-x-7-----9p7-|
|----------------------------------|-x-x--x-x--5---5s7---------------|
|----------------------------------|---------------------------------|


  a H.                   +E.        S
|-------------------------------------|
|-------------------------------------|
|-6s7--------------------(7)--------7s|
|-------------------------------------|
|-4s5--------------------(5)--------5s|
|-------------------------------------|
|
|   E  S S S S S S E S S  S   S  S  S
|------7-7-7---------x-x-10--10-10-10-|
|------7-7-7---------x-x-10--10-10-10-|
|------7-7-7---7---7-x-x--9---7--7--7-|
|--------------7---9------------------|
|-------------------------------------|
|-------------------------------------|


  E    E     E     E   +Q         E    E
|-------------------------------------------|
|-------------------------------------------|
|-4----------2-----4---(4)--------4s===6----|
|-------------------------------------------|
|-2----------0-----2---(2)--------2s===4----|
|-------------------------------------------|
|
| S S  S  S  S  S  S S  S  S S  S S S  S S
|-------------------------------------------|
|-x-x-12s10-13s12-12-x--x--x-9s10-x-x-10----|
|-------------------------------------------|
|-x-x--9s=7-11s10-10-x--x--x-6s=7-x-x--9----|
|-------------------------------------------|
|-------------------------------------------|


  a W                                     E  S S  E  E  E  S S E E
|---------------------------------------|----------------------------|
|---------------------------------------|----------------------------|
|-6s7-----------------------------------|----x-x--7--7--6--x-x-6-----|
|---------------------------------------|----x-x--7--7---------------|
|-4s5-----------------------------------|----x-x--5--5--4--x-x-4-----|
|---------------------------------------|----------------------------|
|
|                                                                PM|
|   E S S S S S S S S S S  S   S   S  S   E  E    E  E  E  E   E S S
|-----7-7-7-----------x-x-10-(10)-10-10-|----------------------------|
|-----7-7-7-----------x-x-10-(10)-10-10-|----------------------------|
|-----7-7-7---7---7---x-x--9p==7---7--7-|---11---11s12-11-11---------|
|-------------7---9---------------------|------------------------7-7-|
|---------------------------------------|----9----9s10--9--9---------|
|---------------------------------------|----------------------------|


  a H             +E    S S +Q          E   E  E    E   E   E    E   E
|-------------------------------------|----------------------------------|
|-------------------------------------|----------------------------------|
|-6s7-------------(7)s==6s4-(4)-------|---------------------6----6s==7---|
|-------------------------------------|-----7--9s==10s==9----------------|
|-4s5-------------(5)s==4s2-(2)-------|---------------------4----4s==5---|
|-------------------------------------|-----5--7s===8s==7----------------|
|
|   E S S S S S S  S  S S S  E   S  S   S S E  S S  S S S S S  S S S S S
|-----7-7-7-----------x-x-x-10--10-10-|----------------------------------|
|-----7-7-7-----------x-x-x-10--10-10-|---------------------9s10-x-x-x---|
|-----7-7-7---7----7---------9---7--7-|-x-x-7-10s9--x-x-9----------------|
|-------------7----9------------------|-x-x-7---------------8s=7-x-x-x---|
|-------------------------------------|--------8s7--x-x-7----------------|
|-------------------------------------|----------------------------------|


  a W                                   E    E    e  E   e E E   E
|-------------------------------------|-------------------------------|
|-------------------------------------|-------------------------------|
|-6s7---------------------------------|-----11s==12--9s=11-7-6s==7----|
|-------------------------------------|-------------------------------|
|-4s5---------------------------------|------9s==10--7s==9-5-4s==5----|
|-------------------------------------|-------------------------------|
|
|   E S S E S s S S S S  S   S   S  S   S S  S S  e  e   E E S S S S
|-----7-7-7---------x-x-10-(10)-10-10-|-------------------------------|
|-----7-7-7---------x-x-10-(10)-10-10-|-x-x--x-x--8-10-/11-7-7--------|
|-----7-7-7-----7---x-x--9p==7---7--7-|-x-x--x-x--7--8-/11-7-7p6------|
|-------------7-9---------------------|--------------------------9p7h=|
|-------------------------------------|-------------------------------|
|-------------------------------------|-------------------------------|


  a W
|---------------------------------------|
|---------------------------------------|
|-6s7-----------------------------------|
|---------------------------------------|
|-4s5-----------------------------------|
|---------------------------------------|
|
|   S S S S S S e S S S S  S   S   S  S
|-------7-7-7---------x-x-10-(10)-10-10-|
|-------7-7-7---------x-x-10-(10)-10-10-|
|-------7-7-7---7-7---x-x--9p==7---7--7-|
|---9-----------7-9---------------------|
|---------------------------------------|
|---------------------------------------|


  Q          Q        E   Q         E
|---------------------------------------*|
|---------------------------------------*|
|-------------------------6s========7---*|
|------------7--------------------------*|
|-------------------------4s========5---*|
|------------5--------------------------*|
|
| S S  S  S  S  S S S S S S  S S S  E
|---------------------------------------*|
|-x-x-12s10-13s12-x-x-x-x-9s10----------*|
|---------------------------------------*|
|-x-x--9s=7-10s=9-x-x-x-x-6s=7----------*|
|------------------------------x-x-10\--*|
|---------------------------------------*|

Site designed and maintained by Edward Cullen.
Bandwidth sponsored by Liquid Web
The Wolfgang Registry is not associated with Peavey Electronics, Fender or Van Halen. All trademarks and copyrights on this page are owned by their respective owners. The Frankenstein Design, a registered U.S. copyright, and the VH logos, registered U.S. trademarks, are used on this website under license from E.L.V.H., Inc. The owner of this website is entirely responsible for all content and material on this website, and is not affiliated with, or endorsed by, VAN HALEN or E.L.V.H., Inc. All material contained on this site is the property of Edward Cullen and may not be used without permission.
This page © Copyright 2003-2017 Edward Cullen All rights reserved.