The Peavey Wolfgang Registry

Site Map
Home
Forums
EVH Product News
Articles/Reviews

EVH Guitar Info
EVH Guitar Registry
View EVH Guitar Registry
EVH eBay Listings

5150-III Information
5150 Information
5150 Registry
View 5150 Registry
5150 Amp Settings
View 5150 Settings
5150 eBay Listings

Links
Van Halen Tabs

Van Halen Diver Down Guitar Tabs

Little Guitars Guitar Tab

LITTLE GUITARS
Van Halen,Diver Down

tuning: regular,exept AFTER intro, low E = D (dropped D tuning)

                                                                                
THE SONG.
w/flanger / distortion
drop d tuning begins here.                                                 
--------------------------------------------------------------------------------
--------------------------------------------------------------------------------
--------------------------------------------------------------------------------
--------------------------------------------------------------------------------
3/2/3--3/5--5--2p0--3--3/2--------3-----0--3/2/3--3/5--5--2p0--3--3/2~~~--3-----
----------------------------0--x--0--x--0---------------------------------------
                                                                                

                                                                                
--------------------------------------------------------------------------------
--------------------------------------------------------------------------------
--------------------------------------------------------------------------------
--------------------------------------------------------------------------------
3--3/2/3--3/5--5--2p0--3--3/2-----3-----------3/2/3--3/5--5--2p0--3--3--2-------
-------------------------------0-----x--0--0------------------------------------
                                                                                

                                                                                
--------------------------------|
--------------------------------|
--------------------------------|
--------------------------------|
~~~--3/2/3--3/2/3--3/5--5--2p0--|
--------------------------------|
                                                                                

                                                                                
5--5--------5-----------5--------5-----5-----3--3--3--------3-------------------
8--7--------5-----------5--------5--5--5-----6--6--5--------3--------5--5--3----
7--7--------6-----------6--------6--7--6-----5--5--5--------4--------3--3--3----
------0--0-----0--0--0-----0--0-----------0-----------0--0-----0--0--3--3-------
--------------------------------------------------------------------------------
--------------------------------------------------------------------------------
(repeat twice)                                                                  


--------------------------------------------------------------------------------
--------------------------------------------------------------------------------
---------0--------0--------------0----------------------------------------------
------0--------0--------------------0--------------0--------0--------------0----
2--3--------2--------2--3--2--1-----------------0--------0----------------------
---------------------------------------0--2--3--------2--------2--3--2--1-------
                                                                                

                                                                                
---------------0--------------------------0-------------------------------------
---------0--0-----0--------------0--0--0-----0----------------------------------
---------0--0--------0--------0--4--4--4--------4-----------4-----5-------------
---------3--3-----------3--3--3--4--4--4-----------4--------4-----3-------------
0--------3--3--------------3--3--2--2--2-----------------------0--0-------------
---------3--3--------------3--3-------------------------------------------------
                                                                                

                                                                                
------------------|-----2--------0--------0--2--------0--3--2-----|-this is the
------------------|--3--3--3-----3--3-----3--3--3-----3--3--3--3--|fingerpicked
------7--6--------|--2-----2--2-----2--2--------2--2-----------2--|part you hear
------5--5--------|--0--------0--------0-----------0--------------|quite often
0--0--0--0--0--0--|-----------------------------------------------|during the 
------------------|-----------------------------------------------|song.Its used
                                                                   many times in
                                                             the song,including
                                                             at the end.    
---3--------3--2--0-----------|-------------------------------------------------
3--3--3-----3--3--3--3--------|-------------------------------------------------
0-----0--0-----------0--------|-------------------------------------------------
------------------------------|-------------------------------------------------
3-----------------------0--0--|-------------------------------------------------
------------------------0--0--|-------------------------------------------------
                                                                                

"Cant grow before im.."                                                    
--------------------------------------------------------------------------------
------0--0--0--1--------0--0--0--0--1-----------0--0-----1--1-----0--0--0--0----
------0--0--0--2--2-----0--0--2--0--2-----------0--0-----2--2-----0--0--0--0----
3-----------------3--------------------3-----3-----------------3----------------
3--3-----------------3--------------------3--3--------3-------------------------
3--------------------------------------------3----------------------------------
      fingerpicked.                                                             





            "Senorita do you.."
---------|-----0-----------------------------------------0-----------------|----
0--1-----|--3-----3--------3--2-----0-----------------3-----3--3--2--------|----
0--2-----|--0--------0-----------0-----0-----------0-----------------0-----|----
------0--|--2-----------2-----------------------2-----------------------2--|----
------0--|--0--------------------------------0--------------------------0--|----
---------|-----------------------------------------------------------------|----
                                                                                

catch as  catch        catch as catch can, anybody in there right mind could 
--------------------------------------------------------------------------------
0-----2-----3-----------0-----2--3--------0-----2-----3-----------0-----2-------
0-----0-----0-----------0-----0--0--------0-----0-----0-----------0-----0-------
0-----0-----0-----------0-----0--0--------0-----0-----0-----------0-----0-------
--------------------------------------------------------------------------------
5--5--5--5--5--5--5--5--5--5--5--5--5--5--5--5--5--5--5--5--5--5--5--5--5--5----
                                                                                

see...                                                                          
------------|
3--2--0-----|       OK,thats a good portion of the song.All of it is there
0--0--0-----|       but just used in different parts.I didnt do the
0--------0--|       solo.Ok any questions/suggestions,whatever,send em to
------------|       
5-----------|       [http://www.jaxnet.com/~dsale]
                                                         
                                                                                

Site designed and maintained by Edward Cullen.
Bandwidth sponsored by Liquid Web
The Wolfgang Registry is not associated with Peavey Electronics, Fender or Van Halen. All trademarks and copyrights on this page are owned by their respective owners. The Frankenstein Design, a registered U.S. copyright, and the VH logos, registered U.S. trademarks, are used on this website under license from E.L.V.H., Inc. The owner of this website is entirely responsible for all content and material on this website, and is not affiliated with, or endorsed by, VAN HALEN or E.L.V.H., Inc. All material contained on this site is the property of Edward Cullen and may not be used without permission.
This page © Copyright 2003-2017 Edward Cullen All rights reserved.